Make your own free website on Tripod.com
Aeris' Theme
Original Composition By Nobuo Uematsu
Transcribed By Mike Harnest (harnest@msn.com)
Note: All notes are for the "lead" instrument playing at
the time of the song.
Playing Note: Try this with an Octaver or Octave Box (Octave1
way up and Octave2 all the way down.

h - hammer on/off
/\ - slide in direction indicated
E |-----10-----8-----------------10---9----12---10---7---9----------12*----------|
B |---10---------10----------10---------------------------------10-----13*----------|
G |-11---------------9-----11-----------------------------------------------9-----------|
D |---------------------------------------------------------------------------10-----------|
A |------------------------------------------------------------------------------------------|
E |------------------------------------------------------------------------------------------|

* - play these notes instead if using an Octave Box

E |-----10-----8--------------------------------------------------------------------------|
B |---10--------10-----------------------------------------------------------------------|
G |-11-------------9-----7/9----7----10-----9----7----9----7-----------7----------|
D |----------------------------------------------------------------------5/7*-------------|
A |-----------------------------------------------------------------------------------------|
E |-----------------------------------------------------------------------------------------|

* - only used to stress chord change

E |----------------------------------------10---------------------------------------------|
B |----------------7/8--10----10/12--------12-----8---10/12h10---10---------|
G |--7/9---11---------------------------------------------------------------------------|
D |----------------------------------------------------------------------------------------|
A |----------------------------------------------------------------------------------------|
E |----------------------------------------------------------------------------------------|

E |-----------------------------------------------------10----10-9-------------------------|
B |--10\7-------12\10--------10\7------10/12------------------12-10---------------|
G |----------6------------7------------6----------------------------------------11---11---|
D |--------------------------------------------------------------------------------------------|
A |--------------------------------------------------------------------------------------------|
E |--------------------------------------------------------------------------------------------|

E |-10-9-----------14--14-----10-9-----------------------------------------------------|
B |---------12-14-----------------------12-10--------------------------------------------|
G |--------------------------------------------------9-9--9--11--12--11--9--7--7------|
D |--------------------------------------------------------------------------------------------|
A |--------------------------------------------------------------------------------------------|
E |--------------------------------------------------------------------------------------------|

E |-------------------------10-9------------------------------------------------------------|
B |-----------------------------------12-10---------8---12---10------------------------|
G |--12--11--7--9--7----------------------9--9-----------------------------------------|
D |-------------------------------------------------------------------------------------------|
A |-------------------------------------------------------------------------------------------|
E |-------------------------------------------------------------------------------------------|
Thank you and goodnight, MH